PDA

Voir la version complète : Metallica - Nothing Else Matters


philopatris
02/05/2010, 13h51
http://www.youtube.com/v/bAsA00-5KoI&hl=fr_FR&fs=1

nico
02/05/2010, 14h21
Coucou Phil,

Un mariage original mais néanmoins réussi (le morceau s'y prête il faut dire !)

J'en profite pour ajouter cette petite vidéo sympa sur la même thème :

http://www.youtube.com/v/qHWOrdAS7SM&hl=fr_FR&fs=1&

Océane
02/05/2010, 15h33
...Never cared for what they do...Never cared for what they know

C'est l'une de mes préférées...

Thanks once more, Philo !

;)

Océane
02/05/2010, 15h40
... Nico... je viens de voir ta "petite vidéo"...

Magnifique !

Merci.

;)

nico
02/05/2010, 15h50
Coucou Océane !

Dommage qu'elle soit sauvagement coupée à la fin... mais bon :mrgreen:

born_hittiste
02/05/2010, 16h07
je ne sais pas si vous etes d'accord avec moi, cette chanson me fais pensé directement a "simple man" de lynyrd skynyrd !

nico
02/05/2010, 16h22
Salut Born,
Euh, moi déjà le nom du groupe en question, jamais entendu parler :redface:
Alors j'ai jeté un coup d'oeil sur youtube, et en fait je la connais cette chanson ! Mais j'y ai pas pensé du tout en écoutant celle de Metallica (on mettra ça sur le compte d'un déficit de culture musicale)

Pour ceux (et il y en aura, je n'en doute pas) qui seraient dans mon cas, la voici...

http://www.youtube.com/v/sHQ_aTjXObs&hl=fr_FR&fs=1&

Océane
02/05/2010, 16h27
je ne sais pas si vous etes d'accord avec moi, cette chanson me fais pensé directement a "simple man" de lynyrd skynyrd !
... Maintenant que tu le dis... oui...

;)

born_hittiste
02/05/2010, 16h35
0.50 mn de nothing else et le debut de simple man.

on mettra ça sur le compte d'un déficit de culture musicale

ok c'est noté.

Maintenant que tu le dis... oui..

oui t'es d'accord ou oui c'est a ce moment que tu as pensé a la chanson ?...:lol:

Océane
02/05/2010, 16h41
... Oui... je suis d'accord...
Je n'y avais pas pensé avant.

;)

nico
02/05/2010, 17h25
Simple man (intro)


e|---------------------------------------------------------------3-----|
B|---------------1-------------------------------1-------1---------1---|
G|*---------0------0---0---------0---------2-------2---2-----2--------|
D|*-----------2------2-----0-------0---0-----2-------2---------2------|
A|---0-2-3------3------------2-------2---0-----0-----------0----------|
E|-----------------------3-----3---------------------------------------|


Nothing else matters (à 50')

|Guitar I
|------------7------|--------------------|--------------------|
|------------8------|--------7--------5--|--------3--------4--|
|----------9--------|--------7--------5--|--------4--------2--|
|--------9----------|-----7--------5-----|-----5--------4-----|
|------7------------|--5--------3--------|-----------2--------|
|--0----------------|--------------------|--3-----------------|
|
|Guitar II (acoustic guitar)
|------------7------|----5--------3------|----3--------2------|
|----------8--------|------7--------5----|------3--------4----|
|--------9----------|--------7--------5--|--------4--------2--|
|-------------------|--------------------|--------------------|
|-------------------|--------------------|--------------------|
|-------------------|--------------------|--------------------|


ouf, ça va, c'est quand même pas pompé... mais c'est vrai qu'il y a un petit air de famille, sans doute les sonorité et le tempo de l'arpège !

born_hittiste
02/05/2010, 18h01
mais c'est vrai qu'il y a un petit air de famille, sans doute les sonorité et le tempo de l'arpège !

ou tout simplement metallica c'est inspiré de la chanson.

absente
02/05/2010, 18h08
ah NICO !!!!! merci pour les notes :D
je copie ça de suite et file gratter ma belle en bois ;)

philopatris
03/05/2010, 07h40
kikou les amis(es)

merci de passer par là et d'apprécier mon groupe préféré :razz:


borny
tu veux bien écouter simple man un autre jour?:evil::mrgreen: j'aime beaucoup aussi



nico
:5::5: tu es trop scientifique toi!!!

nico
03/05/2010, 17h40
Fallait le dire que c'était tes chouchous les Metallica :redface:
Alors lequel en particulier ???
je dirais James ou Kirk :mrgreen: alors je me trompe ?
A moins que Robert :rolleyes: ?
:twisted: :lol:

Cookies